ISO-10303-21;
HEADER;
FILE_DESCRIPTION (( 'STEP AP214' ),
    '1' );
FILE_NAME ('Axle.STEP',
    '2021-04-06T18:32:16',
    ( '' ),
    ( '' ),
    'SwSTEP 2.0',
    'SolidWorks 2018',
    '' );
FILE_SCHEMA (( 'AUTOMOTIVE_DESIGN' ));
ENDSEC;

DATA;
#1 = UNCERTAINTY_MEASURE_WITH_UNIT (LENGTH_MEASURE( 1.000000000000000082E-05 ), #157, 'distance_accuracy_value', 'NONE');
#2 =( LENGTH_UNIT ( ) NAMED_UNIT ( * ) SI_UNIT ( $, .METRE. ) );
#3 = ADVANCED_FACE ( 'NONE', ( #66 ), #27, .T. ) ;
#4 = CARTESIAN_POINT ( 'NONE',  ( 0.000000000000000000, 0.000000000000000000, 0.04717000000000000359 ) ) ;
#5 = EDGE_LOOP ( 'NONE', ( #324, #331, #344, #16 ) ) ;
#6 = ORIENTED_EDGE ( 'NONE', *, *, #218, .T. ) ;
#7 = DIRECTION ( 'NONE',  ( 0.000000000000000000, 0.000000000000000000, 1.000000000000000000 ) ) ;
#8 = CARTESIAN_POINT ( 'NONE',  ( 0.000000000000000000, 0.000000000000000000, 0.04717000000000000359 ) ) ;
#9 = CIRCLE ( 'NONE', #299, 0.002350000000000000092 ) ;
#10 = STYLED_ITEM ( 'NONE', ( #341 ), #226 ) ;
#11 = FACE_BOUND ( 'NONE', #276, .T. ) ;
#12 = FILL_AREA_STYLE_COLOUR ( '', #93 ) ;
#13 = SURFACE_SIDE_STYLE ('',( #80 ) ) ;
#14 =( GEOMETRIC_REPRESENTATION_CONTEXT ( 3 ) GLOBAL_UNCERTAINTY_ASSIGNED_CONTEXT ( ( #132 ) ) GLOBAL_UNIT_ASSIGNED_CONTEXT ( ( #123, #28, #234 ) ) REPRESENTATION_CONTEXT ( 'NONE', 'WORKASPACE' ) );
#15 = DIRECTION ( 'NONE',  ( -0.000000000000000000, -0.000000000000000000, -1.000000000000000000 ) ) ;
#16 = ORIENTED_EDGE ( 'NONE', *, *, #366, .F. ) ;
#17 = AXIS2_PLACEMENT_3D ( 'NONE', #192, #137, #163 ) ;
#18 = CIRCLE ( 'NONE', #199, 0.007250000000000000368 ) ;
#19 = ORIENTED_EDGE ( 'NONE', *, *, #201, .T. ) ;
#20 = CIRCLE ( 'NONE', #148, 0.002350000000000000092 ) ;
#21 = CIRCLE ( 'NONE', #353, 0.007250000000000000368 ) ;
#22 = VERTEX_POINT ( 'NONE', #233 ) ;
#23 =( LENGTH_UNIT ( ) NAMED_UNIT ( * ) SI_UNIT ( $, .METRE. ) );
#24 = PRODUCT_DEFINITION_FORMATION_WITH_SPECIFIED_SOURCE ( 'ANY', '', #313, .NOT_KNOWN. ) ;
#25 = DIRECTION ( 'NONE',  ( -1.000000000000000000, 0.000000000000000000, 0.000000000000000000 ) ) ;
#26 = SURFACE_STYLE_FILL_AREA ( #252 ) ;
#27 = CYLINDRICAL_SURFACE ( 'NONE', #243, 0.007250000000000000368 ) ;
#28 =( NAMED_UNIT ( * ) PLANE_ANGLE_UNIT ( ) SI_UNIT ( $, .RADIAN. ) );
#29 = ORIENTED_EDGE ( 'NONE', *, *, #187, .F. ) ;
#30 = ADVANCED_FACE ( 'NONE', ( #11, #71 ), #327, .F. ) ;
#31 = MECHANICAL_DESIGN_GEOMETRIC_PRESENTATION_REPRESENTATION (  '', ( #369 ), #209 ) ;
#32 = DIRECTION ( 'NONE',  ( 1.000000000000000000, 0.000000000000000000, 0.000000000000000000 ) ) ;
#33 =( LENGTH_UNIT ( ) NAMED_UNIT ( * ) SI_UNIT ( $, .METRE. ) );
#34 =( GEOMETRIC_REPRESENTATION_CONTEXT ( 3 ) GLOBAL_UNCERTAINTY_ASSIGNED_CONTEXT ( ( #272 ) ) GLOBAL_UNIT_ASSIGNED_CONTEXT ( ( #2, #35, #59 ) ) REPRESENTATION_CONTEXT ( 'NONE', 'WORKASPACE' ) );
#35 =( NAMED_UNIT ( * ) PLANE_ANGLE_UNIT ( ) SI_UNIT ( $, .RADIAN. ) );
#36 = MECHANICAL_DESIGN_GEOMETRIC_PRESENTATION_REPRESENTATION (  '', ( #10 ), #77 ) ;
#37 =( NAMED_UNIT ( * ) SI_UNIT ( $, .STERADIAN. ) SOLID_ANGLE_UNIT ( ) );
#38 = ORIENTED_EDGE ( 'NONE', *, *, #152, .T. ) ;
#39 = CARTESIAN_POINT ( 'NONE',  ( 0.000000000000000000, 0.000000000000000000, 0.000000000000000000 ) ) ;
#40 = STYLED_ITEM ( 'NONE', ( #103 ), #3 ) ;
#41 = DIRECTION ( 'NONE',  ( -1.000000000000000000, 0.000000000000000000, 0.000000000000000000 ) ) ;
#42 = EDGE_LOOP ( 'NONE', ( #191, #293, #333, #308 ) ) ;
#43 = ADVANCED_FACE ( 'NONE', ( #343 ), #95, .T. ) ;
#44 = CIRCLE ( 'NONE', #220, 0.007250000000000000368 ) ;
#45 = SURFACE_STYLE_FILL_AREA ( #348 ) ;
#46 = ORIENTED_EDGE ( 'NONE', *, *, #366, .T. ) ;
#47 = UNCERTAINTY_MEASURE_WITH_UNIT (LENGTH_MEASURE( 1.000000000000000082E-05 ), #33, 'distance_accuracy_value', 'NONE');
#48 = DIRECTION ( 'NONE',  ( -0.000000000000000000, -0.000000000000000000, -1.000000000000000000 ) ) ;
#49 = AXIS2_PLACEMENT_3D ( 'NONE', #266, #180, #99 ) ;
#50 = CARTESIAN_POINT ( 'NONE',  ( -0.002350000000000000092, 0.000000000000000000, 0.005000000000000000104 ) ) ;
#51 = COLOUR_RGB ( '',0.6470588235294117974, 0.6196078431372549211, 0.5882352941176470784 ) ;
#52 = ORIENTED_EDGE ( 'NONE', *, *, #136, .T. ) ;
#53 = DIRECTION ( 'NONE',  ( -0.000000000000000000, -0.000000000000000000, -1.000000000000000000 ) ) ;
#54 = CARTESIAN_POINT ( 'NONE',  ( 1.617758421673653487E-18, -0.005960000000000000020, 0.04717000000000000359 ) ) ;
#55 = FACE_OUTER_BOUND ( 'NONE', #288, .T. ) ;
#56 =( GEOMETRIC_REPRESENTATION_CONTEXT ( 3 ) GLOBAL_UNCERTAINTY_ASSIGNED_CONTEXT ( ( #219 ) ) GLOBAL_UNIT_ASSIGNED_CONTEXT ( ( #102, #332, #37 ) ) REPRESENTATION_CONTEXT ( 'NONE', 'WORKASPACE' ) );
#57 = ADVANCED_FACE ( 'NONE', ( #232 ), #295, .T. ) ;
#58 =( NAMED_UNIT ( * ) PLANE_ANGLE_UNIT ( ) SI_UNIT ( $, .RADIAN. ) );
#59 =( NAMED_UNIT ( * ) SI_UNIT ( $, .STERADIAN. ) SOLID_ANGLE_UNIT ( ) );
#60 = AXIS2_PLACEMENT_3D ( 'NONE', #8, #190, #291 ) ;
#61 =( NAMED_UNIT ( * ) SI_UNIT ( $, .STERADIAN. ) SOLID_ANGLE_UNIT ( ) );
#62 = MECHANICAL_DESIGN_GEOMETRIC_PRESENTATION_REPRESENTATION (  '', ( #255 ), #34 ) ;
#63 = SURFACE_STYLE_USAGE ( .BOTH. , #235 ) ;
#64 = LINE ( 'NONE', #212, #363 ) ;
#65 = FILL_AREA_STYLE_COLOUR ( '', #182 ) ;
#66 = FACE_OUTER_BOUND ( 'NONE', #262, .T. ) ;
#67 = VERTEX_POINT ( 'NONE', #158 ) ;
#68 = EDGE_CURVE ( 'NONE', #342, #67, #64, .T. ) ;
#69 = DIRECTION ( 'NONE',  ( 0.000000000000000000, 0.000000000000000000, 1.000000000000000000 ) ) ;
#70 = AXIS2_PLACEMENT_3D ( 'NONE', #320, #374, #253 ) ;
#71 = FACE_OUTER_BOUND ( 'NONE', #5, .T. ) ;
#72 = LINE ( 'NONE', #121, #315 ) ;
#73 = AXIS2_PLACEMENT_3D ( 'NONE', #150, #326, #376 ) ;
#74 = DIRECTION ( 'NONE',  ( 1.000000000000000000, 0.000000000000000000, 0.000000000000000000 ) ) ;
#75 = COLOUR_RGB ( '',0.6470588235294117974, 0.6196078431372549211, 0.5882352941176470784 ) ;
#76 = STYLED_ITEM ( 'NONE', ( #196 ), #131 ) ;
#77 =( GEOMETRIC_REPRESENTATION_CONTEXT ( 3 ) GLOBAL_UNCERTAINTY_ASSIGNED_CONTEXT ( ( #159 ) ) GLOBAL_UNIT_ASSIGNED_CONTEXT ( ( #120, #202, #83 ) ) REPRESENTATION_CONTEXT ( 'NONE', 'WORKASPACE' ) );
#78 = DIRECTION ( 'NONE',  ( 1.000000000000000000, 0.000000000000000000, 0.000000000000000000 ) ) ;
#79 = FACE_OUTER_BOUND ( 'NONE', #42, .T. ) ;
#80 = SURFACE_STYLE_FILL_AREA ( #273 ) ;
#81 = VECTOR ( 'NONE', #53, 1.000000000000000000 ) ;
#82 = ORIENTED_EDGE ( 'NONE', *, *, #305, .F. ) ;
#83 =( NAMED_UNIT ( * ) SI_UNIT ( $, .STERADIAN. ) SOLID_ANGLE_UNIT ( ) );
#84 = EDGE_CURVE ( 'NONE', #238, #127, #261, .T. ) ;
#85 = SURFACE_STYLE_FILL_AREA ( #122 ) ;
#86 = COLOUR_RGB ( '',0.6470588235294117974, 0.6196078431372549211, 0.5882352941176470784 ) ;
#87 = CARTESIAN_POINT ( 'NONE',  ( -0.002350000000000000092, 0.000000000000000000, 0.005000000000000000104 ) ) ;
#88 = SHAPE_DEFINITION_REPRESENTATION ( #368, #107 ) ;
#89 = PRESENTATION_LAYER_ASSIGNMENT (  '', '', ( #10 ) ) ;
#90 =( NAMED_UNIT ( * ) SI_UNIT ( $, .STERADIAN. ) SOLID_ANGLE_UNIT ( ) );
#91 =( GEOMETRIC_REPRESENTATION_CONTEXT ( 3 ) GLOBAL_UNCERTAINTY_ASSIGNED_CONTEXT ( ( #47 ) ) GLOBAL_UNIT_ASSIGNED_CONTEXT ( ( #33, #58, #61 ) ) REPRESENTATION_CONTEXT ( 'NONE', 'WORKASPACE' ) );
#92 = PRODUCT_CONTEXT ( 'NONE', #97, 'mechanical' ) ;
#93 = COLOUR_RGB ( '',0.6470588235294117974, 0.6196078431372549211, 0.5882352941176470784 ) ;
#94 = SURFACE_SIDE_STYLE ('',( #242 ) ) ;
#95 = CYLINDRICAL_SURFACE ( 'NONE', #183, 0.007250000000000000368 ) ;
#96 = VERTEX_POINT ( 'NONE', #356 ) ;
#97 = APPLICATION_CONTEXT ( 'automotive_design' ) ;
#98 =( GEOMETRIC_REPRESENTATION_CONTEXT ( 3 ) GLOBAL_UNCERTAINTY_ASSIGNED_CONTEXT ( ( #1 ) ) GLOBAL_UNIT_ASSIGNED_CONTEXT ( ( #157, #347, #204 ) ) REPRESENTATION_CONTEXT ( 'NONE', 'WORKASPACE' ) );
#99 = DIRECTION ( 'NONE',  ( -1.000000000000000000, 0.000000000000000000, -0.000000000000000000 ) ) ;
#100 = PRESENTATION_LAYER_ASSIGNMENT (  '', '', ( #269 ) ) ;
#101 = FILL_AREA_STYLE_COLOUR ( '', #284 ) ;
#102 =( LENGTH_UNIT ( ) NAMED_UNIT ( * ) SI_UNIT ( $, .METRE. ) );
#103 = PRESENTATION_STYLE_ASSIGNMENT (( #268 ) ) ;
#104 = ORIENTED_EDGE ( 'NONE', *, *, #373, .F. ) ;
#105 = VECTOR ( 'NONE', #184, 1.000000000000000000 ) ;
#106 = DIRECTION ( 'NONE',  ( 0.000000000000000000, 0.000000000000000000, 1.000000000000000000 ) ) ;
#107 = ADVANCED_BREP_SHAPE_REPRESENTATION ( 'Axle', ( #287, #336 ), #14 ) ;
#108 = DIRECTION ( 'NONE',  ( 1.000000000000000000, 0.000000000000000000, 0.000000000000000000 ) ) ;
#109 = VECTOR ( 'NONE', #346, 1.000000000000000000 ) ;
#110 = ORIENTED_EDGE ( 'NONE', *, *, #115, .F. ) ;
#111 = DIRECTION ( 'NONE',  ( 0.000000000000000000, 0.000000000000000000, 1.000000000000000000 ) ) ;
#112 = SURFACE_STYLE_FILL_AREA ( #281 ) ;
#113 = EDGE_CURVE ( 'NONE', #314, #186, #275, .T. ) ;
#114 = CLOSED_SHELL ( 'NONE', ( #328, #3, #43, #237, #226, #131, #30, #297, #57 ) ) ;
#115 = EDGE_CURVE ( 'NONE', #96, #247, #18, .T. ) ;
#116 = FACE_OUTER_BOUND ( 'NONE', #149, .T. ) ;
#117 = ORIENTED_EDGE ( 'NONE', *, *, #377, .T. ) ;
#118 = PRESENTATION_LAYER_ASSIGNMENT (  '', '', ( #76 ) ) ;
#119 = CARTESIAN_POINT ( 'NONE',  ( 0.004128062499526867837, -0.005960000000000000020, 0.04717000000000000359 ) ) ;
#120 =( LENGTH_UNIT ( ) NAMED_UNIT ( * ) SI_UNIT ( $, .METRE. ) );
#121 = CARTESIAN_POINT ( 'NONE',  ( 0.002350000000000000092, 2.877919977996280020E-19, 0.005000000000000000104 ) ) ;
#122 = FILL_AREA_STYLE ('',( #206 ) ) ;
#123 =( LENGTH_UNIT ( ) NAMED_UNIT ( * ) SI_UNIT ( $, .METRE. ) );
#124 = PRESENTATION_LAYER_ASSIGNMENT (  '', '', ( #255 ) ) ;
#125 = COLOUR_RGB ( '',0.6470588235294117974, 0.6196078431372549211, 0.5882352941176470784 ) ;
#126 = CARTESIAN_POINT ( 'NONE',  ( 0.000000000000000000, 0.000000000000000000, 0.000000000000000000 ) ) ;
#127 = VERTEX_POINT ( 'NONE', #189 ) ;
#128 =( NAMED_UNIT ( * ) SI_UNIT ( $, .STERADIAN. ) SOLID_ANGLE_UNIT ( ) );
#129 = APPLICATION_CONTEXT ( 'automotive_design' ) ;
#130 = PRESENTATION_LAYER_ASSIGNMENT (  '', '', ( #40 ) ) ;
#131 = ADVANCED_FACE ( 'NONE', ( #116 ), #223, .T. ) ;
#132 = UNCERTAINTY_MEASURE_WITH_UNIT (LENGTH_MEASURE( 1.000000000000000082E-05 ), #123, 'distance_accuracy_value', 'NONE');
#133 = DIRECTION ( 'NONE',  ( 0.000000000000000000, 0.000000000000000000, 1.000000000000000000 ) ) ;
#134 = LINE ( 'NONE', #50, #109 ) ;
#135 = DIRECTION ( 'NONE',  ( 1.000000000000000000, 0.000000000000000000, -0.000000000000000000 ) ) ;
#136 = EDGE_CURVE ( 'NONE', #67, #339, #260, .T. ) ;
#137 = DIRECTION ( 'NONE',  ( 0.000000000000000000, 0.000000000000000000, -1.000000000000000000 ) ) ;
#138 = DIRECTION ( 'NONE',  ( -1.000000000000000000, 0.000000000000000000, 0.000000000000000000 ) ) ;
#139 =( LENGTH_UNIT ( ) NAMED_UNIT ( * ) SI_UNIT ( $, .METRE. ) );
#140 = ORIENTED_EDGE ( 'NONE', *, *, #283, .T. ) ;
#141 = CARTESIAN_POINT ( 'NONE',  ( 0.000000000000000000, 0.000000000000000000, 0.005000000000000000104 ) ) ;
#142 = PRESENTATION_STYLE_ASSIGNMENT (( #63 ) ) ;
#143 = MECHANICAL_DESIGN_GEOMETRIC_PRESENTATION_REPRESENTATION (  '', ( #76 ), #248 ) ;
#144 = SURFACE_SIDE_STYLE ('',( #112 ) ) ;
#145 = CIRCLE ( 'NONE', #175, 0.007250000000000000368 ) ;
#146 = AXIS2_PLACEMENT_3D ( 'NONE', #271, #106, #362 ) ;
#147 = AXIS2_PLACEMENT_3D ( 'NONE', #361, #357, #41 ) ;
#148 = AXIS2_PLACEMENT_3D ( 'NONE', #378, #207, #208 ) ;
#149 = EDGE_LOOP ( 'NONE', ( #117, #254, #6, #323 ) ) ;
#150 = CARTESIAN_POINT ( 'NONE',  ( 0.000000000000000000, 0.000000000000000000, 0.005000000000000000104 ) ) ;
#151 = CARTESIAN_POINT ( 'NONE',  ( -0.007250000000000000368, 0.000000000000000000, 0.000000000000000000 ) ) ;
#152 = EDGE_CURVE ( 'NONE', #339, #238, #21, .T. ) ;
#153 = EDGE_CURVE ( 'NONE', #22, #309, #303, .T. ) ;
#154 = SURFACE_STYLE_USAGE ( .BOTH. , #292 ) ;
#155 = VERTEX_POINT ( 'NONE', #307 ) ;
#156 = CYLINDRICAL_SURFACE ( 'NONE', #330, 0.002350000000000000092 ) ;
#157 =( LENGTH_UNIT ( ) NAMED_UNIT ( * ) SI_UNIT ( $, .METRE. ) );
#158 = CARTESIAN_POINT ( 'NONE',  ( 0.007250000000000000368, 8.878689293818310351E-19, 0.000000000000000000 ) ) ;
#159 = UNCERTAINTY_MEASURE_WITH_UNIT (LENGTH_MEASURE( 1.000000000000000082E-05 ), #120, 'distance_accuracy_value', 'NONE');
#160 = SURFACE_STYLE_USAGE ( .BOTH. , #210 ) ;
#161 = DIRECTION ( 'NONE',  ( -0.000000000000000000, -0.000000000000000000, -1.000000000000000000 ) ) ;
#162 = DIRECTION ( 'NONE',  ( -0.000000000000000000, -0.000000000000000000, -1.000000000000000000 ) ) ;
#163 = DIRECTION ( 'NONE',  ( -1.000000000000000000, 0.000000000000000000, 0.000000000000000000 ) ) ;
#164 = SURFACE_STYLE_USAGE ( .BOTH. , #13 ) ;
#165 = EDGE_LOOP ( 'NONE', ( #249, #316, #349, #375 ) ) ;
#166 = STYLED_ITEM ( 'NONE', ( #350 ), #107 ) ;
#167 = EDGE_LOOP ( 'NONE', ( #365, #197 ) ) ;
#168 = COLOUR_RGB ( '',0.7803921568627451011, 0.7607843137254901578, 0.7411764705882353255 ) ;
#169 = VECTOR ( 'NONE', #108, 1.000000000000000000 ) ;
#170 = ORIENTED_EDGE ( 'NONE', *, *, #68, .F. ) ;
#171 = AXIS2_PLACEMENT_3D ( 'NONE', #301, #133, #135 ) ;
#172 = CARTESIAN_POINT ( 'NONE',  ( 0.007250000000000000368, 8.878689293818310351E-19, 0.04717000000000000359 ) ) ;
#173 = ORIENTED_EDGE ( 'NONE', *, *, #218, .F. ) ;
#174 = DIRECTION ( 'NONE',  ( -1.000000000000000000, 0.000000000000000000, 0.000000000000000000 ) ) ;
#175 = AXIS2_PLACEMENT_3D ( 'NONE', #264, #257, #213 ) ;
#176 = CARTESIAN_POINT ( 'NONE',  ( -0.004128062499526869572, -0.005959999999999998285, 0.04717000000000000359 ) ) ;
#177 = DIRECTION ( 'NONE',  ( -0.000000000000000000, -0.000000000000000000, -1.000000000000000000 ) ) ;
#178 = DIRECTION ( 'NONE',  ( -0.000000000000000000, -0.000000000000000000, -1.000000000000000000 ) ) ;
#179 = APPLICATION_PROTOCOL_DEFINITION ( 'draft international standard', 'automotive_design', 1998, #129 ) ;
#180 = DIRECTION ( 'NONE',  ( 0.000000000000000000, 0.000000000000000000, -1.000000000000000000 ) ) ;
#181 = ORIENTED_EDGE ( 'NONE', *, *, #373, .T. ) ;
#182 = COLOUR_RGB ( '',0.7803921568627451011, 0.7607843137254901578, 0.7411764705882353255 ) ;
#183 = AXIS2_PLACEMENT_3D ( 'NONE', #4, #177, #25 ) ;
#184 = DIRECTION ( 'NONE',  ( 1.000000000000000000, -0.000000000000000000, -0.000000000000000000 ) ) ;
#185 = CARTESIAN_POINT ( 'NONE',  ( 0.000000000000000000, 0.000000000000000000, 0.04717000000000000359 ) ) ;
#186 = VERTEX_POINT ( 'NONE', #270 ) ;
#187 = EDGE_CURVE ( 'NONE', #247, #238, #241, .T. ) ;
#188 =( GEOMETRIC_REPRESENTATION_CONTEXT ( 3 ) GLOBAL_UNCERTAINTY_ASSIGNED_CONTEXT ( ( #370 ) ) GLOBAL_UNIT_ASSIGNED_CONTEXT ( ( #239, #300, #128 ) ) REPRESENTATION_CONTEXT ( 'NONE', 'WORKASPACE' ) );
#189 = CARTESIAN_POINT ( 'NONE',  ( 0.004128062499526867837, -0.005960000000000000020, 0.000000000000000000 ) ) ;
#190 = DIRECTION ( 'NONE',  ( -0.000000000000000000, -0.000000000000000000, -1.000000000000000000 ) ) ;
#191 = ORIENTED_EDGE ( 'NONE', *, *, #84, .T. ) ;
#192 = CARTESIAN_POINT ( 'NONE',  ( 0.000000000000000000, 0.000000000000000000, 0.005000000000000000104 ) ) ;
#193 = FACE_OUTER_BOUND ( 'NONE', #364, .T. ) ;
#194 = CARTESIAN_POINT ( 'NONE',  ( 0.000000000000000000, 0.000000000000000000, 0.04717000000000000359 ) ) ;
#195 = PRODUCT_RELATED_PRODUCT_CATEGORY ( 'part', '', ( #313 ) ) ;
#196 = PRESENTATION_STYLE_ASSIGNMENT (( #164 ) ) ;
#197 = ORIENTED_EDGE ( 'NONE', *, *, #153, .T. ) ;
#198 = CIRCLE ( 'NONE', #312, 0.007250000000000000368 ) ;
#199 = AXIS2_PLACEMENT_3D ( 'NONE', #338, #69, #222 ) ;
#200 = MECHANICAL_DESIGN_GEOMETRIC_PRESENTATION_REPRESENTATION (  '', ( #166 ), #91 ) ;
#201 = EDGE_CURVE ( 'NONE', #186, #314, #9, .T. ) ;
#202 =( NAMED_UNIT ( * ) PLANE_ANGLE_UNIT ( ) SI_UNIT ( $, .RADIAN. ) );
#203 = UNCERTAINTY_MEASURE_WITH_UNIT (LENGTH_MEASURE( 1.000000000000000082E-05 ), #139, 'distance_accuracy_value', 'NONE');
#204 =( NAMED_UNIT ( * ) SI_UNIT ( $, .STERADIAN. ) SOLID_ANGLE_UNIT ( ) );
#205 = ORIENTED_EDGE ( 'NONE', *, *, #113, .F. ) ;
#206 = FILL_AREA_STYLE_COLOUR ( '', #125 ) ;
#207 = DIRECTION ( 'NONE',  ( 0.000000000000000000, 0.000000000000000000, -1.000000000000000000 ) ) ;
#208 = DIRECTION ( 'NONE',  ( -1.000000000000000000, 0.000000000000000000, 0.000000000000000000 ) ) ;
#209 =( GEOMETRIC_REPRESENTATION_CONTEXT ( 3 ) GLOBAL_UNCERTAINTY_ASSIGNED_CONTEXT ( ( #224 ) ) GLOBAL_UNIT_ASSIGNED_CONTEXT ( ( #23, #258, #90 ) ) REPRESENTATION_CONTEXT ( 'NONE', 'WORKASPACE' ) );
#210 = SURFACE_SIDE_STYLE ('',( #325 ) ) ;
#211 = ORIENTED_EDGE ( 'NONE', *, *, #280, .T. ) ;
#212 = CARTESIAN_POINT ( 'NONE',  ( 0.007250000000000000368, 8.878689293818310351E-19, 0.04717000000000000359 ) ) ;
#213 = DIRECTION ( 'NONE',  ( 1.000000000000000000, 0.000000000000000000, 0.000000000000000000 ) ) ;
#214 = FILL_AREA_STYLE_COLOUR ( '', #75 ) ;
#215 = SURFACE_STYLE_USAGE ( .BOTH. , #94 ) ;
#216 = SURFACE_STYLE_FILL_AREA ( #351 ) ;
#217 = SURFACE_STYLE_USAGE ( .BOTH. , #144 ) ;
#218 = EDGE_CURVE ( 'NONE', #342, #96, #44, .T. ) ;
#219 = UNCERTAINTY_MEASURE_WITH_UNIT (LENGTH_MEASURE( 1.000000000000000082E-05 ), #102, 'distance_accuracy_value', 'NONE');
#220 = AXIS2_PLACEMENT_3D ( 'NONE', #194, #310, #78 ) ;
#221 =( NAMED_UNIT ( * ) PLANE_ANGLE_UNIT ( ) SI_UNIT ( $, .RADIAN. ) );
#222 = DIRECTION ( 'NONE',  ( 1.000000000000000000, 0.000000000000000000, 0.000000000000000000 ) ) ;
#223 = PLANE ( 'NONE',  #146 ) ;
#224 = UNCERTAINTY_MEASURE_WITH_UNIT (LENGTH_MEASURE( 1.000000000000000082E-05 ), #23, 'distance_accuracy_value', 'NONE');
#225 = ORIENTED_EDGE ( 'NONE', *, *, #345, .F. ) ;
#226 = ADVANCED_FACE ( 'NONE', ( #193 ), #274, .T. ) ;
#227 = MECHANICAL_DESIGN_GEOMETRIC_PRESENTATION_REPRESENTATION (  '', ( #304 ), #188 ) ;
#228 = ORIENTED_EDGE ( 'NONE', *, *, #318, .F. ) ;
#229 = CARTESIAN_POINT ( 'NONE',  ( -0.007250000000000000368, 0.000000000000000000, 0.04717000000000000359 ) ) ;
#230 = VECTOR ( 'NONE', #322, 1.000000000000000000 ) ;
#231 = FILL_AREA_STYLE_COLOUR ( '', #168 ) ;
#232 = FACE_OUTER_BOUND ( 'NONE', #167, .T. ) ;
#233 = CARTESIAN_POINT ( 'NONE',  ( 0.002350000000000000092, 2.877919977996280020E-19, 0.005000000000000000104 ) ) ;
#234 =( NAMED_UNIT ( * ) SI_UNIT ( $, .STERADIAN. ) SOLID_ANGLE_UNIT ( ) );
#235 = SURFACE_SIDE_STYLE ('',( #45 ) ) ;
#236 = PRESENTATION_LAYER_ASSIGNMENT (  '', '', ( #369 ) ) ;
#237 = ADVANCED_FACE ( 'NONE', ( #79 ), #256, .F. ) ;
#238 = VERTEX_POINT ( 'NONE', #286 ) ;
#239 =( LENGTH_UNIT ( ) NAMED_UNIT ( * ) SI_UNIT ( $, .METRE. ) );
#240 = DIRECTION ( 'NONE',  ( -1.000000000000000000, 0.000000000000000000, 0.000000000000000000 ) ) ;
#241 = LINE ( 'NONE', #278, #337 ) ;
#242 = SURFACE_STYLE_FILL_AREA ( #265 ) ;
#243 = AXIS2_PLACEMENT_3D ( 'NONE', #185, #161, #240 ) ;
#244 = DIRECTION ( 'NONE',  ( 0.000000000000000000, 0.000000000000000000, -1.000000000000000000 ) ) ;
#245 =( NAMED_UNIT ( * ) SI_UNIT ( $, .STERADIAN. ) SOLID_ANGLE_UNIT ( ) );
#246 = DIRECTION ( 'NONE',  ( 0.000000000000000000, 0.000000000000000000, 1.000000000000000000 ) ) ;
#247 = VERTEX_POINT ( 'NONE', #176 ) ;
#248 =( GEOMETRIC_REPRESENTATION_CONTEXT ( 3 ) GLOBAL_UNCERTAINTY_ASSIGNED_CONTEXT ( ( #203 ) ) GLOBAL_UNIT_ASSIGNED_CONTEXT ( ( #139, #221, #245 ) ) REPRESENTATION_CONTEXT ( 'NONE', 'WORKASPACE' ) );
#249 = ORIENTED_EDGE ( 'NONE', *, *, #153, .F. ) ;
#250 = ORIENTED_EDGE ( 'NONE', *, *, #68, .T. ) ;
#251 = PRODUCT_DEFINITION ( 'UNKNOWN', '', #24, #290 ) ;
#252 = FILL_AREA_STYLE ('',( #231 ) ) ;
#253 = DIRECTION ( 'NONE',  ( 0.000000000000000000, -0.000000000000000000, 1.000000000000000000 ) ) ;
#254 = ORIENTED_EDGE ( 'NONE', *, *, #318, .T. ) ;
#255 = STYLED_ITEM ( 'NONE', ( #142 ), #43 ) ;
#256 = PLANE ( 'NONE',  #70 ) ;
#257 = DIRECTION ( 'NONE',  ( 0.000000000000000000, 0.000000000000000000, 1.000000000000000000 ) ) ;
#258 =( NAMED_UNIT ( * ) PLANE_ANGLE_UNIT ( ) SI_UNIT ( $, .RADIAN. ) );
#259 = SURFACE_STYLE_USAGE ( .BOTH. , #296 ) ;
#260 = CIRCLE ( 'NONE', #277, 0.007250000000000000368 ) ;
#261 = LINE ( 'NONE', #334, #169 ) ;
#262 = EDGE_LOOP ( 'NONE', ( #173, #250, #52, #104 ) ) ;
#263 = LINE ( 'NONE', #229, #81 ) ;
#264 = CARTESIAN_POINT ( 'NONE',  ( 0.000000000000000000, 0.000000000000000000, 0.000000000000000000 ) ) ;
#265 = FILL_AREA_STYLE ('',( #101 ) ) ;
#266 = CARTESIAN_POINT ( 'NONE',  ( 0.000000000000000000, 0.000000000000000000, 0.005000000000000000104 ) ) ;
#267 = APPLICATION_PROTOCOL_DEFINITION ( 'draft international standard', 'automotive_design', 1998, #97 ) ;
#268 = SURFACE_STYLE_USAGE ( .BOTH. , #354 ) ;
#269 = STYLED_ITEM ( 'NONE', ( #371 ), #237 ) ;
#270 = CARTESIAN_POINT ( 'NONE',  ( -0.002350000000000000092, 0.000000000000000000, 0.000000000000000000 ) ) ;
#271 = CARTESIAN_POINT ( 'NONE',  ( 0.000000000000000000, 0.000000000000000000, 0.04717000000000000359 ) ) ;
#272 = UNCERTAINTY_MEASURE_WITH_UNIT (LENGTH_MEASURE( 1.000000000000000082E-05 ), #2, 'distance_accuracy_value', 'NONE');
#273 = FILL_AREA_STYLE ('',( #306 ) ) ;
#274 = CYLINDRICAL_SURFACE ( 'NONE', #60, 0.007250000000000000368 ) ;
#275 = CIRCLE ( 'NONE', #147, 0.002350000000000000092 ) ;
#276 = EDGE_LOOP ( 'NONE', ( #359, #205 ) ) ;
#277 = AXIS2_PLACEMENT_3D ( 'NONE', #302, #246, #355 ) ;
#278 = CARTESIAN_POINT ( 'NONE',  ( -0.004128062499526869572, -0.005959999999999998285, 0.04717000000000000359 ) ) ;
#279 = PRESENTATION_LAYER_ASSIGNMENT (  '', '', ( #304 ) ) ;
#280 = EDGE_CURVE ( 'NONE', #309, #186, #134, .T. ) ;
#281 = FILL_AREA_STYLE ('',( #12 ) ) ;
#282 = PRESENTATION_LAYER_ASSIGNMENT (  '', '', ( #166 ) ) ;
#283 = EDGE_CURVE ( 'NONE', #155, #127, #329, .T. ) ;
#284 = COLOUR_RGB ( '',0.6470588235294117974, 0.6196078431372549211, 0.5882352941176470784 ) ;
#285 = EDGE_LOOP ( 'NONE', ( #110, #181, #38, #29 ) ) ;
#286 = CARTESIAN_POINT ( 'NONE',  ( -0.004128062499526869572, -0.005959999999999998285, 0.000000000000000000 ) ) ;
#287 = MANIFOLD_SOLID_BREP ( 'Cut-Extrude1', #114 ) ;
#288 = EDGE_LOOP ( 'NONE', ( #225, #82, #211, #19 ) ) ;
#289 = DIRECTION ( 'NONE',  ( 1.000000000000000000, 0.000000000000000000, 0.000000000000000000 ) ) ;
#290 = PRODUCT_DEFINITION_CONTEXT ( 'detailed design', #129, 'design' ) ;
#291 = DIRECTION ( 'NONE',  ( -1.000000000000000000, 0.000000000000000000, 0.000000000000000000 ) ) ;
#292 = SURFACE_SIDE_STYLE ('',( #26 ) ) ;
#293 = ORIENTED_EDGE ( 'NONE', *, *, #283, .F. ) ;
#294 = CYLINDRICAL_SURFACE ( 'NONE', #73, 0.002350000000000000092 ) ;
#295 = PLANE ( 'NONE',  #49 ) ;
#296 = SURFACE_SIDE_STYLE ('',( #85 ) ) ;
#297 = ADVANCED_FACE ( 'NONE', ( #55 ), #156, .F. ) ;
#298 = FILL_AREA_STYLE ('',( #65 ) ) ;
#299 = AXIS2_PLACEMENT_3D ( 'NONE', #39, #244, #138 ) ;
#300 =( NAMED_UNIT ( * ) PLANE_ANGLE_UNIT ( ) SI_UNIT ( $, .RADIAN. ) );
#301 = CARTESIAN_POINT ( 'NONE',  ( 0.000000000000000000, 0.000000000000000000, 0.000000000000000000 ) ) ;
#302 = CARTESIAN_POINT ( 'NONE',  ( 0.000000000000000000, 0.000000000000000000, 0.000000000000000000 ) ) ;
#303 = CIRCLE ( 'NONE', #17, 0.002350000000000000092 ) ;
#304 = STYLED_ITEM ( 'NONE', ( #372 ), #30 ) ;
#305 = EDGE_CURVE ( 'NONE', #309, #22, #20, .T. ) ;
#306 = FILL_AREA_STYLE_COLOUR ( '', #51 ) ;
#307 = CARTESIAN_POINT ( 'NONE',  ( 0.004128062499526867837, -0.005960000000000000020, 0.04717000000000000359 ) ) ;
#308 = ORIENTED_EDGE ( 'NONE', *, *, #187, .T. ) ;
#309 = VERTEX_POINT ( 'NONE', #87 ) ;
#310 = DIRECTION ( 'NONE',  ( 0.000000000000000000, 0.000000000000000000, 1.000000000000000000 ) ) ;
#311 = MECHANICAL_DESIGN_GEOMETRIC_PRESENTATION_REPRESENTATION (  '', ( #269 ), #98 ) ;
#312 = AXIS2_PLACEMENT_3D ( 'NONE', #319, #317, #289 ) ;
#313 = PRODUCT ( 'Axle', 'Axle', '', ( #92 ) ) ;
#314 = VERTEX_POINT ( 'NONE', #321 ) ;
#315 = VECTOR ( 'NONE', #48, 1.000000000000000000 ) ;
#316 = ORIENTED_EDGE ( 'NONE', *, *, #345, .T. ) ;
#317 = DIRECTION ( 'NONE',  ( 0.000000000000000000, 0.000000000000000000, 1.000000000000000000 ) ) ;
#318 = EDGE_CURVE ( 'NONE', #155, #342, #198, .T. ) ;
#319 = CARTESIAN_POINT ( 'NONE',  ( 0.000000000000000000, 0.000000000000000000, 0.04717000000000000359 ) ) ;
#320 = CARTESIAN_POINT ( 'NONE',  ( 1.617758421673653487E-18, -0.005960000000000000020, 0.04717000000000000359 ) ) ;
#321 = CARTESIAN_POINT ( 'NONE',  ( 0.002350000000000000092, 2.877919977996280020E-19, 0.000000000000000000 ) ) ;
#322 = DIRECTION ( 'NONE',  ( -0.000000000000000000, -0.000000000000000000, -1.000000000000000000 ) ) ;
#323 = ORIENTED_EDGE ( 'NONE', *, *, #115, .T. ) ;
#324 = ORIENTED_EDGE ( 'NONE', *, *, #84, .F. ) ;
#325 = SURFACE_STYLE_FILL_AREA ( #298 ) ;
#326 = DIRECTION ( 'NONE',  ( -0.000000000000000000, -0.000000000000000000, -1.000000000000000000 ) ) ;
#327 = PLANE ( 'NONE',  #171 ) ;
#328 = ADVANCED_FACE ( 'NONE', ( #340 ), #294, .F. ) ;
#329 = LINE ( 'NONE', #119, #230 ) ;
#330 = AXIS2_PLACEMENT_3D ( 'NONE', #141, #178, #174 ) ;
#331 = ORIENTED_EDGE ( 'NONE', *, *, #152, .F. ) ;
#332 =( NAMED_UNIT ( * ) PLANE_ANGLE_UNIT ( ) SI_UNIT ( $, .RADIAN. ) );
#333 = ORIENTED_EDGE ( 'NONE', *, *, #377, .F. ) ;
#334 = CARTESIAN_POINT ( 'NONE',  ( 1.617758421673653487E-18, -0.005960000000000000020, 0.000000000000000000 ) ) ;
#335 = CARTESIAN_POINT ( 'NONE',  ( 0.000000000000000000, 0.000000000000000000, 0.000000000000000000 ) ) ;
#336 = AXIS2_PLACEMENT_3D ( 'NONE', #126, #7, #32 ) ;
#337 = VECTOR ( 'NONE', #162, 1.000000000000000000 ) ;
#338 = CARTESIAN_POINT ( 'NONE',  ( 0.000000000000000000, 0.000000000000000000, 0.04717000000000000359 ) ) ;
#339 = VERTEX_POINT ( 'NONE', #151 ) ;
#340 = FACE_OUTER_BOUND ( 'NONE', #165, .T. ) ;
#341 = PRESENTATION_STYLE_ASSIGNMENT (( #217 ) ) ;
#342 = VERTEX_POINT ( 'NONE', #172 ) ;
#343 = FACE_OUTER_BOUND ( 'NONE', #285, .T. ) ;
#344 = ORIENTED_EDGE ( 'NONE', *, *, #136, .F. ) ;
#345 = EDGE_CURVE ( 'NONE', #22, #314, #72, .T. ) ;
#346 = DIRECTION ( 'NONE',  ( -0.000000000000000000, -0.000000000000000000, -1.000000000000000000 ) ) ;
#347 =( NAMED_UNIT ( * ) PLANE_ANGLE_UNIT ( ) SI_UNIT ( $, .RADIAN. ) );
#348 = FILL_AREA_STYLE ('',( #352 ) ) ;
#349 = ORIENTED_EDGE ( 'NONE', *, *, #113, .T. ) ;
#350 = PRESENTATION_STYLE_ASSIGNMENT (( #160 ) ) ;
#351 = FILL_AREA_STYLE ('',( #214 ) ) ;
#352 = FILL_AREA_STYLE_COLOUR ( '', #86 ) ;
#353 = AXIS2_PLACEMENT_3D ( 'NONE', #335, #111, #74 ) ;
#354 = SURFACE_SIDE_STYLE ('',( #216 ) ) ;
#355 = DIRECTION ( 'NONE',  ( 1.000000000000000000, 0.000000000000000000, 0.000000000000000000 ) ) ;
#356 = CARTESIAN_POINT ( 'NONE',  ( -0.007250000000000000368, 0.000000000000000000, 0.04717000000000000359 ) ) ;
#357 = DIRECTION ( 'NONE',  ( 0.000000000000000000, 0.000000000000000000, -1.000000000000000000 ) ) ;
#358 = PRESENTATION_STYLE_ASSIGNMENT (( #154 ) ) ;
#359 = ORIENTED_EDGE ( 'NONE', *, *, #201, .F. ) ;
#360 = LINE ( 'NONE', #54, #105 ) ;
#361 = CARTESIAN_POINT ( 'NONE',  ( 0.000000000000000000, 0.000000000000000000, 0.000000000000000000 ) ) ;
#362 = DIRECTION ( 'NONE',  ( 1.000000000000000000, 0.000000000000000000, -0.000000000000000000 ) ) ;
#363 = VECTOR ( 'NONE', #15, 1.000000000000000000 ) ;
#364 = EDGE_LOOP ( 'NONE', ( #170, #228, #140, #46 ) ) ;
#365 = ORIENTED_EDGE ( 'NONE', *, *, #305, .T. ) ;
#366 = EDGE_CURVE ( 'NONE', #127, #67, #145, .T. ) ;
#367 = MECHANICAL_DESIGN_GEOMETRIC_PRESENTATION_REPRESENTATION (  '', ( #40 ), #56 ) ;
#368 = PRODUCT_DEFINITION_SHAPE ( 'NONE', 'NONE',  #251 ) ;
#369 = STYLED_ITEM ( 'NONE', ( #358 ), #287 ) ;
#370 = UNCERTAINTY_MEASURE_WITH_UNIT (LENGTH_MEASURE( 1.000000000000000082E-05 ), #239, 'distance_accuracy_value', 'NONE');
#371 = PRESENTATION_STYLE_ASSIGNMENT (( #259 ) ) ;
#372 = PRESENTATION_STYLE_ASSIGNMENT (( #215 ) ) ;
#373 = EDGE_CURVE ( 'NONE', #96, #339, #263, .T. ) ;
#374 = DIRECTION ( 'NONE',  ( 0.000000000000000000, 1.000000000000000000, 0.000000000000000000 ) ) ;
#375 = ORIENTED_EDGE ( 'NONE', *, *, #280, .F. ) ;
#376 = DIRECTION ( 'NONE',  ( -1.000000000000000000, 0.000000000000000000, 0.000000000000000000 ) ) ;
#377 = EDGE_CURVE ( 'NONE', #247, #155, #360, .T. ) ;
#378 = CARTESIAN_POINT ( 'NONE',  ( 0.000000000000000000, 0.000000000000000000, 0.005000000000000000104 ) ) ;
ENDSEC;
END-ISO-10303-21;
