ISO-10303-21;
HEADER;
FILE_DESCRIPTION (( 'STEP AP214' ),
    '1' );
FILE_NAME ('Screw.STEP',
    '2021-04-06T21:28:59',
    ( '' ),
    ( '' ),
    'SwSTEP 2.0',
    'SolidWorks 2018',
    '' );
FILE_SCHEMA (( 'AUTOMOTIVE_DESIGN' ));
ENDSEC;

DATA;
#1 =( NAMED_UNIT ( * ) PLANE_ANGLE_UNIT ( ) SI_UNIT ( $, .RADIAN. ) );
#2 = DIRECTION ( 'NONE',  ( 0.000000000000000000, 1.000000000000000000, 0.000000000000000000 ) ) ;
#3 = VERTEX_POINT ( 'NONE', #30 ) ;
#4 = DIRECTION ( 'NONE',  ( 0.000000000000000000, -0.000000000000000000, 1.000000000000000000 ) ) ;
#5 = DIRECTION ( 'NONE',  ( -0.000000000000000000, -1.000000000000000000, -0.000000000000000000 ) ) ;
#6 = PRESENTATION_STYLE_ASSIGNMENT (( #134 ) ) ;
#7 = EDGE_CURVE ( 'NONE', #163, #131, #214, .T. ) ;
#8 = DIRECTION ( 'NONE',  ( 0.000000000000000000, -0.000000000000000000, 1.000000000000000000 ) ) ;
#9 = CIRCLE ( 'NONE', #70, 2.500000000000000000 ) ;
#10 = APPLICATION_CONTEXT ( 'automotive_design' ) ;
#11 = ORIENTED_EDGE ( 'NONE', *, *, #40, .F. ) ;
#12 = AXIS2_PLACEMENT_3D ( 'NONE', #21, #109, #66 ) ;
#13 = ADVANCED_FACE ( 'NONE', ( #74 ), #18, .F. ) ;
#14 = ORIENTED_EDGE ( 'NONE', *, *, #61, .T. ) ;
#15 = PRODUCT_DEFINITION_CONTEXT ( 'detailed design', #10, 'design' ) ;
#16 = PRODUCT_DEFINITION ( 'UNKNOWN', '', #101, #15 ) ;
#17 = ORIENTED_EDGE ( 'NONE', *, *, #179, .T. ) ;
#18 = PLANE ( 'NONE',  #181 ) ;
#19 = DIRECTION ( 'NONE',  ( 0.000000000000000000, 1.000000000000000000, 0.000000000000000000 ) ) ;
#20 = CARTESIAN_POINT ( 'NONE',  ( 0.000000000000000000, 12.50000000000000000, 0.000000000000000000 ) ) ;
#21 = CARTESIAN_POINT ( 'NONE',  ( 0.000000000000000000, 15.50000000000000000, 0.000000000000000000 ) ) ;
#22 = CARTESIAN_POINT ( 'NONE',  ( 0.000000000000000000, 12.50000000000000000, 0.000000000000000000 ) ) ;
#23 = ADVANCED_FACE ( 'NONE', ( #104 ), #189, .T. ) ;
#24 = ORIENTED_EDGE ( 'NONE', *, *, #213, .T. ) ;
#25 = FILL_AREA_STYLE ('',( #157 ) ) ;
#26 = APPLICATION_CONTEXT ( 'automotive_design' ) ;
#27 = LINE ( 'NONE', #83, #170 ) ;
#28 = UNCERTAINTY_MEASURE_WITH_UNIT (LENGTH_MEASURE( 1.000000000000000082E-05 ), #38, 'distance_accuracy_value', 'NONE');
#29 = PRESENTATION_LAYER_ASSIGNMENT (  '', '', ( #42 ) ) ;
#30 = CARTESIAN_POINT ( 'NONE',  ( 3.061616997868383141E-16, 12.50000000000000000, 2.500000000000000000 ) ) ;
#31 = FILL_AREA_STYLE ('',( #78 ) ) ;
#32 = ORIENTED_EDGE ( 'NONE', *, *, #147, .F. ) ;
#33 = DIRECTION ( 'NONE',  ( 0.000000000000000000, 0.000000000000000000, 1.000000000000000000 ) ) ;
#34 = CARTESIAN_POINT ( 'NONE',  ( 0.000000000000000000, 0.000000000000000000, -1.500000000000000222 ) ) ;
#35 = DIRECTION ( 'NONE',  ( 0.000000000000000000, 0.000000000000000000, 1.000000000000000000 ) ) ;
#36 = VECTOR ( 'NONE', #46, 1000.000000000000000 ) ;
#37 = FACE_OUTER_BOUND ( 'NONE', #77, .T. ) ;
#38 =( LENGTH_UNIT ( ) NAMED_UNIT ( * ) SI_UNIT ( .MILLI., .METRE. ) );
#39 = CIRCLE ( 'NONE', #97, 2.500000000000000000 ) ;
#40 = EDGE_CURVE ( 'NONE', #127, #81, #210, .T. ) ;
#41 = EDGE_LOOP ( 'NONE', ( #151, #200 ) ) ;
#42 = STYLED_ITEM ( 'NONE', ( #130 ), #194 ) ;
#43 = AXIS2_PLACEMENT_3D ( 'NONE', #173, #110, #123 ) ;
#44 = ORIENTED_EDGE ( 'NONE', *, *, #7, .T. ) ;
#45 = ORIENTED_EDGE ( 'NONE', *, *, #158, .F. ) ;
#46 = DIRECTION ( 'NONE',  ( -0.000000000000000000, -1.000000000000000000, -0.000000000000000000 ) ) ;
#47 = DIRECTION ( 'NONE',  ( 0.000000000000000000, 0.000000000000000000, 1.000000000000000000 ) ) ;
#48 = ORIENTED_EDGE ( 'NONE', *, *, #7, .F. ) ;
#49 = AXIS2_PLACEMENT_3D ( 'NONE', #174, #93, #178 ) ;
#50 = DIRECTION ( 'NONE',  ( 0.000000000000000000, 1.000000000000000000, 0.000000000000000000 ) ) ;
#51 = MANIFOLD_SOLID_BREP ( 'Boss-Extrude2', #59 ) ;
#52 = CARTESIAN_POINT ( 'NONE',  ( 1.836970198721030181E-16, 0.000000000000000000, 1.500000000000000222 ) ) ;
#53 = DIRECTION ( 'NONE',  ( 0.000000000000000000, 1.000000000000000000, 0.000000000000000000 ) ) ;
#54 = DIRECTION ( 'NONE',  ( 0.000000000000000000, 0.000000000000000000, 1.000000000000000000 ) ) ;
#55 =( NAMED_UNIT ( * ) PLANE_ANGLE_UNIT ( ) SI_UNIT ( $, .RADIAN. ) );
#56 =( NAMED_UNIT ( * ) SI_UNIT ( $, .STERADIAN. ) SOLID_ANGLE_UNIT ( ) );
#57 = STYLED_ITEM ( 'NONE', ( #6 ), #51 ) ;
#58 = CIRCLE ( 'NONE', #148, 1.500000000000000222 ) ;
#59 = CLOSED_SHELL ( 'NONE', ( #23, #113, #161, #13, #126, #87, #209 ) ) ;
#60 = CYLINDRICAL_SURFACE ( 'NONE', #218, 1.500000000000000222 ) ;
#61 = EDGE_CURVE ( 'NONE', #81, #3, #39, .T. ) ;
#62 = ORIENTED_EDGE ( 'NONE', *, *, #72, .T. ) ;
#63 =( NAMED_UNIT ( * ) SI_UNIT ( $, .STERADIAN. ) SOLID_ANGLE_UNIT ( ) );
#64 = FACE_OUTER_BOUND ( 'NONE', #138, .T. ) ;
#65 = DIRECTION ( 'NONE',  ( -0.000000000000000000, -1.000000000000000000, -0.000000000000000000 ) ) ;
#66 = DIRECTION ( 'NONE',  ( 0.000000000000000000, 0.000000000000000000, -1.000000000000000000 ) ) ;
#67 = VERTEX_POINT ( 'NONE', #119 ) ;
#68 = CARTESIAN_POINT ( 'NONE',  ( 0.000000000000000000, 0.000000000000000000, 0.000000000000000000 ) ) ;
#69 =( NAMED_UNIT ( * ) SI_UNIT ( $, .STERADIAN. ) SOLID_ANGLE_UNIT ( ) );
#70 = AXIS2_PLACEMENT_3D ( 'NONE', #171, #142, #140 ) ;
#71 = APPLICATION_PROTOCOL_DEFINITION ( 'draft international standard', 'automotive_design', 1998, #26 ) ;
#72 = EDGE_CURVE ( 'NONE', #67, #127, #197, .T. ) ;
#73 = AXIS2_PLACEMENT_3D ( 'NONE', #68, #188, #108 ) ;
#74 = FACE_OUTER_BOUND ( 'NONE', #186, .T. ) ;
#75 = SURFACE_STYLE_FILL_AREA ( #25 ) ;
#76 = CIRCLE ( 'NONE', #160, 1.500000000000000222 ) ;
#77 = EDGE_LOOP ( 'NONE', ( #112, #44, #24, #45 ) ) ;
#78 = FILL_AREA_STYLE_COLOUR ( '', #100 ) ;
#79 = PRODUCT ( 'Screw', 'Screw', '', ( #193 ) ) ;
#80 = CARTESIAN_POINT ( 'NONE',  ( 0.000000000000000000, 15.50000000000000000, 0.000000000000000000 ) ) ;
#81 = VERTEX_POINT ( 'NONE', #187 ) ;
#82 = CARTESIAN_POINT ( 'NONE',  ( 0.000000000000000000, 15.50000000000000000, -2.500000000000000000 ) ) ;
#83 = CARTESIAN_POINT ( 'NONE',  ( 3.061616997868383141E-16, 15.50000000000000000, 2.500000000000000000 ) ) ;
#84 = EDGE_CURVE ( 'NONE', #86, #163, #215, .T. ) ;
#85 = DIRECTION ( 'NONE',  ( -0.000000000000000000, -1.000000000000000000, -0.000000000000000000 ) ) ;
#86 = VERTEX_POINT ( 'NONE', #220 ) ;
#87 = ADVANCED_FACE ( 'NONE', ( #92 ), #136, .T. ) ;
#88 = DIRECTION ( 'NONE',  ( 0.000000000000000000, 0.000000000000000000, -1.000000000000000000 ) ) ;
#89 = MECHANICAL_DESIGN_GEOMETRIC_PRESENTATION_REPRESENTATION (  '', ( #42 ), #125 ) ;
#90 = SURFACE_STYLE_USAGE ( .BOTH. , #180 ) ;
#91 = FACE_OUTER_BOUND ( 'NONE', #41, .T. ) ;
#92 = FACE_OUTER_BOUND ( 'NONE', #143, .T. ) ;
#93 = DIRECTION ( 'NONE',  ( 0.000000000000000000, 0.000000000000000000, 1.000000000000000000 ) ) ;
#94 = ORIENTED_EDGE ( 'NONE', *, *, #122, .F. ) ;
#95 = UNCERTAINTY_MEASURE_WITH_UNIT (LENGTH_MEASURE( 1.000000000000000082E-05 ), #176, 'distance_accuracy_value', 'NONE');
#96 = ORIENTED_EDGE ( 'NONE', *, *, #158, .T. ) ;
#97 = AXIS2_PLACEMENT_3D ( 'NONE', #116, #2, #47 ) ;
#98 = COLOUR_RGB ( '',0.7529411764705882248, 0.7529411764705882248, 0.7529411764705882248 ) ;
#99 = SURFACE_STYLE_FILL_AREA ( #31 ) ;
#100 = COLOUR_RGB ( '',0.7529411764705882248, 0.7529411764705882248, 0.7529411764705882248 ) ;
#101 = PRODUCT_DEFINITION_FORMATION_WITH_SPECIFIED_SOURCE ( 'ANY', '', #79, .NOT_KNOWN. ) ;
#102 = CARTESIAN_POINT ( 'NONE',  ( 0.000000000000000000, 0.000000000000000000, 0.000000000000000000 ) ) ;
#103 =( LENGTH_UNIT ( ) NAMED_UNIT ( * ) SI_UNIT ( .MILLI., .METRE. ) );
#104 = FACE_OUTER_BOUND ( 'NONE', #177, .T. ) ;
#105 = MECHANICAL_DESIGN_GEOMETRIC_PRESENTATION_REPRESENTATION (  '', ( #57 ), #212 ) ;
#106 = DIRECTION ( 'NONE',  ( 0.000000000000000000, 1.000000000000000000, 0.000000000000000000 ) ) ;
#107 = PLANE ( 'NONE',  #204 ) ;
#108 = DIRECTION ( 'NONE',  ( 0.000000000000000000, 0.000000000000000000, 1.000000000000000000 ) ) ;
#109 = DIRECTION ( 'NONE',  ( -0.000000000000000000, -1.000000000000000000, -0.000000000000000000 ) ) ;
#110 = DIRECTION ( 'NONE',  ( 0.000000000000000000, 1.000000000000000000, 0.000000000000000000 ) ) ;
#111 = DIRECTION ( 'NONE',  ( 0.000000000000000000, 0.000000000000000000, -1.000000000000000000 ) ) ;
#112 = ORIENTED_EDGE ( 'NONE', *, *, #199, .F. ) ;
#113 = ADVANCED_FACE ( 'NONE', ( #37 ), #206, .T. ) ;
#114 = APPLICATION_PROTOCOL_DEFINITION ( 'draft international standard', 'automotive_design', 1998, #10 ) ;
#115 = ORIENTED_EDGE ( 'NONE', *, *, #199, .T. ) ;
#116 = CARTESIAN_POINT ( 'NONE',  ( 0.000000000000000000, 12.50000000000000000, 0.000000000000000000 ) ) ;
#117 = ORIENTED_EDGE ( 'NONE', *, *, #133, .T. ) ;
#118 = DIRECTION ( 'NONE',  ( -0.000000000000000000, -1.000000000000000000, -0.000000000000000000 ) ) ;
#119 = CARTESIAN_POINT ( 'NONE',  ( 3.061616997868383141E-16, 15.50000000000000000, 2.500000000000000000 ) ) ;
#120 = CARTESIAN_POINT ( 'NONE',  ( 1.836970198721030181E-16, 12.50000000000000000, 1.500000000000000222 ) ) ;
#121 = DIRECTION ( 'NONE',  ( -0.000000000000000000, -1.000000000000000000, -0.000000000000000000 ) ) ;
#122 = EDGE_CURVE ( 'NONE', #127, #67, #9, .T. ) ;
#123 = DIRECTION ( 'NONE',  ( 0.000000000000000000, 0.000000000000000000, 1.000000000000000000 ) ) ;
#124 = ORIENTED_EDGE ( 'NONE', *, *, #84, .F. ) ;
#125 =( GEOMETRIC_REPRESENTATION_CONTEXT ( 3 ) GLOBAL_UNCERTAINTY_ASSIGNED_CONTEXT ( ( #28 ) ) GLOBAL_UNIT_ASSIGNED_CONTEXT ( ( #38, #159, #69 ) ) REPRESENTATION_CONTEXT ( 'NONE', 'WORKASPACE' ) );
#126 = ADVANCED_FACE ( 'NONE', ( #196 ), #185, .T. ) ;
#127 = VERTEX_POINT ( 'NONE', #82 ) ;
#128 = ORIENTED_EDGE ( 'NONE', *, *, #213, .F. ) ;
#129 = AXIS2_PLACEMENT_3D ( 'NONE', #80, #106, #201 ) ;
#130 = PRESENTATION_STYLE_ASSIGNMENT (( #90 ) ) ;
#131 = VERTEX_POINT ( 'NONE', #52 ) ;
#132 = AXIS2_PLACEMENT_3D ( 'NONE', #139, #118, #165 ) ;
#133 = EDGE_CURVE ( 'NONE', #3, #81, #211, .T. ) ;
#134 = SURFACE_STYLE_USAGE ( .BOTH. , #149 ) ;
#135 = VECTOR ( 'NONE', #85, 1000.000000000000000 ) ;
#136 = PLANE ( 'NONE',  #208 ) ;
#137 = DIRECTION ( 'NONE',  ( 0.000000000000000000, -0.000000000000000000, 1.000000000000000000 ) ) ;
#138 = EDGE_LOOP ( 'NONE', ( #48, #124, #96, #17 ) ) ;
#139 = CARTESIAN_POINT ( 'NONE',  ( 0.000000000000000000, 15.50000000000000000, 0.000000000000000000 ) ) ;
#140 = DIRECTION ( 'NONE',  ( 0.000000000000000000, 0.000000000000000000, 1.000000000000000000 ) ) ;
#141 = DIRECTION ( 'NONE',  ( 0.000000000000000000, 1.000000000000000000, 0.000000000000000000 ) ) ;
#142 = DIRECTION ( 'NONE',  ( 0.000000000000000000, 1.000000000000000000, 0.000000000000000000 ) ) ;
#143 = EDGE_LOOP ( 'NONE', ( #192, #62 ) ) ;
#144 = PRODUCT_RELATED_PRODUCT_CATEGORY ( 'part', '', ( #79 ) ) ;
#145 = AXIS2_PLACEMENT_3D ( 'NONE', #207, #203, #88 ) ;
#146 = VECTOR ( 'NONE', #65, 1000.000000000000000 ) ;
#147 = EDGE_CURVE ( 'NONE', #67, #3, #27, .T. ) ;
#148 = AXIS2_PLACEMENT_3D ( 'NONE', #190, #50, #54 ) ;
#149 = SURFACE_SIDE_STYLE ('',( #99 ) ) ;
#150 = CARTESIAN_POINT ( 'NONE',  ( 1.836970198721030181E-16, 12.50000000000000000, 1.500000000000000222 ) ) ;
#151 = ORIENTED_EDGE ( 'NONE', *, *, #61, .F. ) ;
#152 = CIRCLE ( 'NONE', #73, 1.500000000000000222 ) ;
#153 = UNCERTAINTY_MEASURE_WITH_UNIT (LENGTH_MEASURE( 1.000000000000000082E-05 ), #103, 'distance_accuracy_value', 'NONE');
#154 = CARTESIAN_POINT ( 'NONE',  ( 0.000000000000000000, 12.50000000000000000, 0.000000000000000000 ) ) ;
#155 = DIRECTION ( 'NONE',  ( 0.000000000000000000, 1.000000000000000000, 0.000000000000000000 ) ) ;
#156 = FACE_BOUND ( 'NONE', #182, .T. ) ;
#157 = FILL_AREA_STYLE_COLOUR ( '', #98 ) ;
#158 = EDGE_CURVE ( 'NONE', #86, #167, #198, .T. ) ;
#159 =( NAMED_UNIT ( * ) PLANE_ANGLE_UNIT ( ) SI_UNIT ( $, .RADIAN. ) );
#160 = AXIS2_PLACEMENT_3D ( 'NONE', #22, #141, #35 ) ;
#161 = ADVANCED_FACE ( 'NONE', ( #64 ), #60, .T. ) ;
#162 = ORIENTED_EDGE ( 'NONE', *, *, #84, .T. ) ;
#163 = VERTEX_POINT ( 'NONE', #120 ) ;
#164 = PRODUCT_DEFINITION_SHAPE ( 'NONE', 'NONE',  #16 ) ;
#165 = DIRECTION ( 'NONE',  ( 0.000000000000000000, 0.000000000000000000, -1.000000000000000000 ) ) ;
#166 = CARTESIAN_POINT ( 'NONE',  ( 0.000000000000000000, 15.50000000000000000, -2.500000000000000000 ) ) ;
#167 = VERTEX_POINT ( 'NONE', #34 ) ;
#168 = CARTESIAN_POINT ( 'NONE',  ( 0.000000000000000000, 12.50000000000000000, 0.000000000000000000 ) ) ;
#169 = DIRECTION ( 'NONE',  ( 0.000000000000000000, 1.000000000000000000, 0.000000000000000000 ) ) ;
#170 = VECTOR ( 'NONE', #121, 1000.000000000000000 ) ;
#171 = CARTESIAN_POINT ( 'NONE',  ( 0.000000000000000000, 15.50000000000000000, 0.000000000000000000 ) ) ;
#172 = ORIENTED_EDGE ( 'NONE', *, *, #40, .T. ) ;
#173 = CARTESIAN_POINT ( 'NONE',  ( 0.000000000000000000, 12.50000000000000000, 0.000000000000000000 ) ) ;
#174 = CARTESIAN_POINT ( 'NONE',  ( 0.000000000000000000, 0.000000000000000000, 0.000000000000000000 ) ) ;
#175 = SHAPE_DEFINITION_REPRESENTATION ( #164, #194 ) ;
#176 =( LENGTH_UNIT ( ) NAMED_UNIT ( * ) SI_UNIT ( .MILLI., .METRE. ) );
#177 = EDGE_LOOP ( 'NONE', ( #219, #217, #117, #11 ) ) ;
#178 = DIRECTION ( 'NONE',  ( 1.000000000000000000, 0.000000000000000000, 0.000000000000000000 ) ) ;
#179 = EDGE_CURVE ( 'NONE', #167, #131, #58, .T. ) ;
#180 = SURFACE_SIDE_STYLE ('',( #75 ) ) ;
#181 = AXIS2_PLACEMENT_3D ( 'NONE', #102, #19, #137 ) ;
#182 = EDGE_LOOP ( 'NONE', ( #162, #115 ) ) ;
#183 =( GEOMETRIC_REPRESENTATION_CONTEXT ( 3 ) GLOBAL_UNCERTAINTY_ASSIGNED_CONTEXT ( ( #95 ) ) GLOBAL_UNIT_ASSIGNED_CONTEXT ( ( #176, #55, #56 ) ) REPRESENTATION_CONTEXT ( 'NONE', 'WORKASPACE' ) );
#184 = ORIENTED_EDGE ( 'NONE', *, *, #179, .F. ) ;
#185 = CYLINDRICAL_SURFACE ( 'NONE', #12, 2.500000000000000000 ) ;
#186 = EDGE_LOOP ( 'NONE', ( #184, #128 ) ) ;
#187 = CARTESIAN_POINT ( 'NONE',  ( 0.000000000000000000, 12.50000000000000000, -2.500000000000000000 ) ) ;
#188 = DIRECTION ( 'NONE',  ( 0.000000000000000000, 1.000000000000000000, 0.000000000000000000 ) ) ;
#189 = CYLINDRICAL_SURFACE ( 'NONE', #132, 2.500000000000000000 ) ;
#190 = CARTESIAN_POINT ( 'NONE',  ( 0.000000000000000000, 0.000000000000000000, 0.000000000000000000 ) ) ;
#191 = CARTESIAN_POINT ( 'NONE',  ( 0.000000000000000000, 15.50000000000000000, 0.000000000000000000 ) ) ;
#192 = ORIENTED_EDGE ( 'NONE', *, *, #122, .T. ) ;
#193 = PRODUCT_CONTEXT ( 'NONE', #26, 'mechanical' ) ;
#194 = ADVANCED_BREP_SHAPE_REPRESENTATION ( 'Screw', ( #51, #49 ), #183 ) ;
#195 = EDGE_LOOP ( 'NONE', ( #32, #94, #172, #14 ) ) ;
#196 = FACE_OUTER_BOUND ( 'NONE', #195, .T. ) ;
#197 = CIRCLE ( 'NONE', #129, 2.500000000000000000 ) ;
#198 = LINE ( 'NONE', #205, #135 ) ;
#199 = EDGE_CURVE ( 'NONE', #163, #86, #76, .T. ) ;
#200 = ORIENTED_EDGE ( 'NONE', *, *, #133, .F. ) ;
#201 = DIRECTION ( 'NONE',  ( 0.000000000000000000, 0.000000000000000000, 1.000000000000000000 ) ) ;
#202 = PRESENTATION_LAYER_ASSIGNMENT (  '', '', ( #57 ) ) ;
#203 = DIRECTION ( 'NONE',  ( -0.000000000000000000, -1.000000000000000000, -0.000000000000000000 ) ) ;
#204 = AXIS2_PLACEMENT_3D ( 'NONE', #168, #53, #8 ) ;
#205 = CARTESIAN_POINT ( 'NONE',  ( 0.000000000000000000, 12.50000000000000000, -1.500000000000000222 ) ) ;
#206 = CYLINDRICAL_SURFACE ( 'NONE', #145, 1.500000000000000222 ) ;
#207 = CARTESIAN_POINT ( 'NONE',  ( 0.000000000000000000, 12.50000000000000000, 0.000000000000000000 ) ) ;
#208 = AXIS2_PLACEMENT_3D ( 'NONE', #191, #155, #4 ) ;
#209 = ADVANCED_FACE ( 'NONE', ( #156, #91 ), #107, .F. ) ;
#210 = LINE ( 'NONE', #166, #36 ) ;
#211 = CIRCLE ( 'NONE', #216, 2.500000000000000000 ) ;
#212 =( GEOMETRIC_REPRESENTATION_CONTEXT ( 3 ) GLOBAL_UNCERTAINTY_ASSIGNED_CONTEXT ( ( #153 ) ) GLOBAL_UNIT_ASSIGNED_CONTEXT ( ( #103, #1, #63 ) ) REPRESENTATION_CONTEXT ( 'NONE', 'WORKASPACE' ) );
#213 = EDGE_CURVE ( 'NONE', #131, #167, #152, .T. ) ;
#214 = LINE ( 'NONE', #150, #146 ) ;
#215 = CIRCLE ( 'NONE', #43, 1.500000000000000222 ) ;
#216 = AXIS2_PLACEMENT_3D ( 'NONE', #154, #169, #33 ) ;
#217 = ORIENTED_EDGE ( 'NONE', *, *, #147, .T. ) ;
#218 = AXIS2_PLACEMENT_3D ( 'NONE', #20, #5, #111 ) ;
#219 = ORIENTED_EDGE ( 'NONE', *, *, #72, .F. ) ;
#220 = CARTESIAN_POINT ( 'NONE',  ( 0.000000000000000000, 12.50000000000000000, -1.500000000000000222 ) ) ;
ENDSEC;
END-ISO-10303-21;
